  0
SECTION
  2
HEADER
  9
$ACADVER
  1
AC1015
  9
$ACADMAINTVER
 70
     6
  9
$DWGCODEPAGE
  3
ANSI_1254
  9
$INSBASE
 10
0.0
 20
0.0
 30
0.0
  9
$EXTMIN
 10
0.0
 20
0.0
 30
0.0
  9
$EXTMAX
 10
279.4
 20
215.9
 30
0.0
  9
$LIMMIN
 10
0.0
 20
0.0
  9
$LIMMAX
 10
279.4
 20
215.9
  9
$ORTHOMODE
 70
     0
  9
$REGENMODE
 70
     1
  9
$FILLMODE
 70
     1
  9
$QTEXTMODE
 70
     0
  9
$MIRRTEXT
 70
     1
  9
$LTSCALE
 40
1.0
  9
$ATTMODE
 70
     1
  9
$TEXTSIZE
 40
3.5
  9
$TRACEWID
 40
1.0
  9
$TEXTSTYLE
  7
Standard
  9
$CLAYER
  8
0
  9
$CELTYPE
  6
ByLayer
  9
$CECOLOR
 62
   256
  9
$CELTSCALE
 40
1.0
  9
$DISPSILH
 70
     0
  9
$DIMSCALE
 40
1.0
  9
$DIMASZ
 40
3.5
  9
$DIMEXO
 40
1.0
  9
$DIMDLI
 40
3.75
  9
$DIMRND
 40
0.0
  9
$DIMDLE
 40
0.0
  9
$DIMEXE
 40
1.0
  9
$DIMTP
 40
0.0
  9
$DIMTM
 40
0.0
  9
$DIMTXT
 40
3.5
  9
$DIMCEN
 40
2.5
  9
$DIMTSZ
 40
0.0
  9
$DIMTOL
 70
     0
  9
$DIMLIM
 70
     0
  9
$DIMTIH
 70
     1
  9
$DIMTOH
 70
     1
  9
$DIMSE1
 70
     0
  9
$DIMSE2
 70
     0
  9
$DIMTAD
 70
     1
  9
$DIMZIN
 70
     0
  9
$DIMBLK
  1

  9
$DIMASO
 70
     1
  9
$DIMSHO
 70
     1
  9
$DIMPOST
  1

  9
$DIMAPOST
  1

  9
$DIMALT
 70
     0
  9
$DIMALTD
 70
     3
  9
$DIMALTF
 40
0.0393700787
  9
$DIMLFAC
 40
1.0
  9
$DIMTOFL
 70
     1
  9
$DIMTVP
 40
0.0
  9
$DIMTIX
 70
     0
  9
$DIMSOXD
 70
     0
  9
$DIMSAH
 70
     0
  9
$DIMBLK1
  1

  9
$DIMBLK2
  1

  9
$DIMSTYLE
  2
ISO-25
  9
$DIMCLRD
 70
     0
  9
$DIMCLRE
 70
     0
  9
$DIMCLRT
 70
     0
  9
$DIMTFAC
 40
1.0
  9
$DIMGAP
 40
1.524
  9
$DIMJUST
 70
     0
  9
$DIMSD1
 70
     0
  9
$DIMSD2
 70
     0
  9
$DIMTOLJ
 70
     0
  9
$DIMTZIN
 70
     0
  9
$DIMALTZ
 70
     0
  9
$DIMALTTZ
 70
     0
  9
$DIMUPT
 70
     0
  9
$DIMDEC
 70
     2
  9
$DIMTDEC
 70
     2
  9
$DIMALTU
 70
     2
  9
$DIMALTTD
 70
     3
  9
$DIMTXSTY
  7
Standard
  9
$DIMAUNIT
 70
     0
  9
$DIMADEC
 70
     2
  9
$DIMALTRND
 40
0.0
  9
$DIMAZIN
 70
     0
  9
$DIMDSEP
 70
    44
  9
$DIMATFIT
 70
     3
  9
$DIMFRAC
 70
     0
  9
$DIMLDRBLK
  1

  9
$DIMLUNIT
 70
     2
  9
$DIMLWD
 70
    -2
  9
$DIMLWE
 70
    -2
  9
$DIMTMOVE
 70
     0
  9
$LUNITS
 70
     2
  9
$LUPREC
 70
     2
  9
$SKETCHINC
 40
1.0
  9
$FILLETRAD
 40
10.0
  9
$AUNITS
 70
     0
  9
$AUPREC
 70
     2
  9
$MENU
  1
.
  9
$ELEVATION
 40
0.0
  9
$PELEVATION
 40
0.0
  9
$THICKNESS
 40
0.0
  9
$LIMCHECK
 70
     0
  9
$CHAMFERA
 40
0.0
  9
$CHAMFERB
 40
0.0
  9
$CHAMFERC
 40
0.0
  9
$CHAMFERD
 40
0.0
  9
$SKPOLY
 70
     0
  9
$TDCREATE
 40
2458985.632907072
  9
$TDUCREATE
 40
2458985.507907072
  9
$TDUPDATE
 40
2458985.632907326
  9
$TDUUPDATE
 40
2458985.507907326
  9
$TDINDWG
 40
0.0000000116
  9
$TDUSRTIMER
 40
0.0000000116
  9
$USRTIMER
 70
     1
  9
$ANGBASE
 50
0.0
  9
$ANGDIR
 70
     0
  9
$PDMODE
 70
     0
  9
$PDSIZE
 40
-1.0
  9
$PLINEWID
 40
0.0
  9
$SPLFRAME
 70
     0
  9
$SPLINETYPE
 70
     6
  9
$SPLINESEGS
 70
     8
  9
$HANDSEED
  5
CC
  9
$SURFTAB1
 70
     6
  9
$SURFTAB2
 70
     6
  9
$SURFTYPE
 70
     6
  9
$SURFU
 70
     6
  9
$SURFV
 70
     6
  9
$UCSBASE
  2

  9
$UCSNAME
  2

  9
$UCSORG
 10
0.0
 20
0.0
 30
0.0
  9
$UCSXDIR
 10
1.0
 20
0.0
 30
0.0
  9
$UCSYDIR
 10
0.0
 20
1.0
 30
0.0
  9
$UCSORTHOREF
  2

  9
$UCSORTHOVIEW
 70
     0
  9
$UCSORGTOP
 10
0.0
 20
0.0
 30
0.0
  9
$UCSORGBOTTOM
 10
0.0
 20
0.0
 30
0.0
  9
$UCSORGLEFT
 10
0.0
 20
0.0
 30
0.0
  9
$UCSORGRIGHT
 10
0.0
 20
0.0
 30
0.0
  9
$UCSORGFRONT
 10
0.0
 20
0.0
 30
0.0
  9
$UCSORGBACK
 10
0.0
 20
0.0
 30
0.0
  9
$PUCSBASE
  2

  9
$PUCSNAME
  2

  9
$PUCSORG
 10
0.0
 20
0.0
 30
0.0
  9
$PUCSXDIR
 10
1.0
 20
0.0
 30
0.0
  9
$PUCSYDIR
 10
0.0
 20
1.0
 30
0.0
  9
$PUCSORTHOREF
  2

  9
$PUCSORTHOVIEW
 70
     0
  9
$PUCSORGTOP
 10
0.0
 20
0.0
 30
0.0
  9
$PUCSORGBOTTOM
 10
0.0
 20
0.0
 30
0.0
  9
$PUCSORGLEFT
 10
0.0
 20
0.0
 30
0.0
  9
$PUCSORGRIGHT
 10
0.0
 20
0.0
 30
0.0
  9
$PUCSORGFRONT
 10
0.0
 20
0.0
 30
0.0
  9
$PUCSORGBACK
 10
0.0
 20
0.0
 30
0.0
  9
$USERI1
 70
     0
  9
$USERI2
 70
     0
  9
$USERI3
 70
     0
  9
$USERI4
 70
     0
  9
$USERI5
 70
     0
  9
$USERR1
 40
0.0
  9
$USERR2
 40
0.0
  9
$USERR3
 40
0.0
  9
$USERR4
 40
0.0
  9
$USERR5
 40
0.0
  9
$WORLDVIEW
 70
     1
  9
$SHADEDGE
 70
     3
  9
$SHADEDIF
 70
    70
  9
$TILEMODE
 70
     1
  9
$MAXACTVP
 70
    64
  9
$PINSBASE
 10
0.0
 20
0.0
 30
0.0
  9
$PLIMCHECK
 70
     0
  9
$PEXTMIN
 10
1.0000000000E+20
 20
1.0000000000E+20
 30
1.0000000000E+20
  9
$PEXTMAX
 10
-1.0000000000E+20
 20
-1.0000000000E+20
 30
-1.0000000000E+20
  9
$PLIMMIN
 10
0.0
 20
0.0
  9
$PLIMMAX
 10
420.0
 20
297.0
  9
$UNITMODE
 70
     0
  9
$VISRETAIN
 70
     1
  9
$PLINEGEN
 70
     0
  9
$PSLTSCALE
 70
     1
  9
$TREEDEPTH
 70
  3020
  9
$CMLSTYLE
  2
Standard
  9
$CMLJUST
 70
     0
  9
$CMLSCALE
 40
20.0
  9
$PROXYGRAPHICS
 70
     1
  9
$MEASUREMENT
 70
     1
  9
$CELWEIGHT
370
    -1
  9
$ENDCAPS
280
     0
  9
$JOINSTYLE
280
     0
  9
$LWDISPLAY
290
     1
  9
$INSUNITS
 70
     4
  9
$HYPERLINKBASE
  1

  9
$STYLESHEET
  1

  9
$XEDIT
290
     1
  9
$CEPSNTYPE
380
     0
  9
$PSTYLEMODE
290
     1
  9
$FINGERPRINTGUID
  2
{dd3ae540-d608-42e6-9d0c-b3685cda8b9d}
  9
$VERSIONGUID
  2
{FAEB1C32-E019-11D5-929B-00C0DF256EC4}
  9
$EXTNAMES
290
     1
  9
$PSVPSCALE
 40
0.0
  9
$OLESTARTUP
290
     0
  0
ENDSEC
  0
SECTION
  2
CLASSES
  0
CLASS
  1
ACDBDICTIONARYWDFLT
  2
AcDbDictionaryWithDefault
  3
ObjectDBX Classes
 90
        0
280
     0
281
     0
  0
CLASS
  1
VISUALSTYLE
  2
AcDbVisualStyle
  3
ObjectDBX Classes
 90
     4095
280
     0
281
     0
  0
CLASS
  1
MATERIAL
  2
AcDbMaterial
  3
ObjectDBX Classes
 90
     1153
280
     0
281
     0
  0
CLASS
  1
SCALE
  2
AcDbScale
  3
ObjectDBX Classes
 90
     1153
280
     0
281
     0
  0
CLASS
  1
TABLESTYLE
  2
AcDbTableStyle
  3
ObjectDBX Classes
 90
     4095
280
     0
281
     0
  0
CLASS
  1
MLEADERSTYLE
  2
AcDbMLeaderStyle
  3
ACDB_MLEADERSTYLE_CLASS
 90
     4095
280
     0
281
     0
  0
CLASS
  1
SUN
  2
AcDbSun
  3
SCENEOE
 90
     1153
280
     0
281
     0
  0
CLASS
  1
ACDBPLACEHOLDER
  2
AcDbPlaceHolder
  3
ObjectDBX Classes
 90
        0
280
     0
281
     0
  0
CLASS
  1
LAYOUT
  2
AcDbLayout
  3
ObjectDBX Classes
 90
        0
280
     0
281
     0
  0
ENDSEC
  0
SECTION
  2
TABLES
  0
TABLE
  2
VPORT
  5
8
330
0
100
AcDbSymbolTable
 70
     1
  0
VPORT
  5
29
330
8
100
AcDbSymbolTableRecord
100
AcDbViewportTableRecord
  2
*Active
 70
     0
 10
0.0
 20
0.0
 11
1.0
 21
1.0
 12
139.7
 22
107.95
 13
0.0
 23
0.0
 14
10.0
 24
10.0
 15
10.0
 25
10.0
 16
0.0
 26
0.0
 36
1.0
 17
0.0
 27
0.0
 37
0.0
 40
215.9
 41
1.2941176471
 42
50.0
 43
0.0
 44
0.0
 50
0.0
 51
0.0
 71
     0
 72
  2000
 73
     1
 74
     3
 75
     0
 76
     0
 77
     0
 78
     0
281
     0
 65
     1
110
0.0
120
0.0
130
0.0
111
1.0
121
0.0
131
0.0
112
0.0
122
1.0
132
0.0
 79
     0
146
0.0
  0
ENDTAB
  0
TABLE
  2
LTYPE
  5
5
330
0
100
AcDbSymbolTable
 70
     6
  0
LTYPE
  5
14
330
5
100
AcDbSymbolTableRecord
100
AcDbLinetypeTableRecord
  2
ByBlock
 70
     0
  3

 72
    65
 73
     0
 40
0.0
  0
LTYPE
  5
15
330
5
100
AcDbSymbolTableRecord
100
AcDbLinetypeTableRecord
  2
ByLayer
 70
     0
  3

 72
    65
 73
     0
 40
0.0
  0
LTYPE
  5
16
330
5
100
AcDbSymbolTableRecord
100
AcDbLinetypeTableRecord
  2
Continuous
 70
     0
  3
Solid line
 72
    65
 73
     0
 40
0.0
  0
LTYPE
  5
6E
330
5
100
AcDbSymbolTableRecord
100
AcDbLinetypeTableRecord
  2
HIDDEN
 70
     0
  3
Hidden __ __ __ __ __ __ __ __ __ __ __ __ __ __
 72
    65
 73
     2
 40
1.905
 49
1.27
 74
     0
 49
-0.635
 74
     0
  0
LTYPE
  5
6F
330
5
100
AcDbSymbolTableRecord
100
AcDbLinetypeTableRecord
  2
PHANTOM
 70
     0
  3
Phantom ______  __  __  ______  __  __  ______
 72
    65
 73
     6
 40
12.7
 49
6.35
 74
     0
 49
-1.27
 74
     0
 49
1.27
 74
     0
 49
-1.27
 74
     0
 49
1.27
 74
     0
 49
-1.27
 74
     0
  0
LTYPE
  5
70
330
5
100
AcDbSymbolTableRecord
100
AcDbLinetypeTableRecord
  2
CENTER
 70
     0
  3
Center ____ _ ____ _ ____ _ ____ _ ____ _ ____
 72
    65
 73
     4
 40
10.16
 49
6.35
 74
     0
 49
-1.27
 74
     0
 49
1.27
 74
     0
 49
-1.27
 74
     0
  0
LTYPE
  5
71
330
5
100
AcDbSymbolTableRecord
100
AcDbLinetypeTableRecord
  2
CENTERX2
 70
     0
  3
Center (2x) ________  __  ________  __  _____
 72
    65
 73
     4
 40
20.32
 49
12.7
 74
     0
 49
-2.54
 74
     0
 49
2.54
 74
     0
 49
-2.54
 74
     0
  0
LTYPE
  5
72
330
5
100
AcDbSymbolTableRecord
100
AcDbLinetypeTableRecord
  2
DOT2
 70
     0
  3
Dot (.5x) ........................................
 72
    65
 73
     2
 40
0.635
 49
0.0
 74
     0
 49
-0.635
 74
     0
  0
ENDTAB
  0
TABLE
  2
LAYER
  5
2
330
0
100
AcDbSymbolTable
 70
    17
  0
LAYER
  5
10
330
2
100
AcDbSymbolTableRecord
100
AcDbLayerTableRecord
  2
0
 70
     0
 62
     7
  6
Continuous
370
    -3
390
F
  0
LAYER
  5
73
330
2
100
AcDbSymbolTableRecord
100
AcDbLayerTableRecord
  2
FORMAT
 70
     0
 62
     7
  6
Continuous
370
    -3
390
F
  0
LAYER
  5
74
330
2
100
AcDbSymbolTableRecord
100
AcDbLayerTableRecord
  2
YARDIMCI_GEOMETRI
 70
     0
 62
    -6
  6
Continuous
290
     0
370
    -3
390
F
  0
LAYER
  5
75
330
2
100
AcDbSymbolTableRecord
100
AcDbLayerTableRecord
  2
SAYFA_CERCEVESI
 70
     0
 62
     7
  6
Continuous
370
    25
390
F
  0
LAYER
  5
76
330
2
100
AcDbSymbolTableRecord
100
AcDbLayerTableRecord
  2
ANTET
 70
     0
 62
     7
  6
Continuous
370
    -3
390
F
  0
LAYER
  5
77
330
2
100
AcDbSymbolTableRecord
100
AcDbLayerTableRecord
  2
OLCU
 70
     0
 62
   150
  6
Continuous
370
    -3
390
F
  0
LAYER
  5
78
330
2
100
AcDbSymbolTableRecord
100
AcDbLayerTableRecord
  2
METIN
 70
     0
 62
    96
  6
Continuous
370
    -3
390
F
  0
LAYER
  5
79
330
2
100
AcDbSymbolTableRecord
100
AcDbLayerTableRecord
  2
BALON
 70
     0
 62
     5
  6
Continuous
370
    -3
390
F
  0
LAYER
  5
7A
330
2
100
AcDbSymbolTableRecord
100
AcDbLayerTableRecord
  2
VURGU
 70
     0
 62
     7
  6
Continuous
370
    -3
390
F
  0
LAYER
  5
7B
330
2
100
AcDbSymbolTableRecord
100
AcDbLayerTableRecord
  2
SILIK
 70
     0
 62
     7
  6
Continuous
370
    -3
390
F
  0
LAYER
  5
7C
330
2
100
AcDbSymbolTableRecord
100
AcDbLayerTableRecord
  2
MODEL
 70
     0
 62
     7
  6
Continuous
370
    -3
390
F
  0
LAYER
  5
7D
330
2
100
AcDbSymbolTableRecord
100
AcDbLayerTableRecord
  2
DETAYLANDıRMA
 70
     0
 62
   190
  6
Continuous
370
    -3
390
F
  0
LAYER
  5
7E
330
2
100
AcDbSymbolTableRecord
100
AcDbLayerTableRecord
  2
TOLERANS
 70
     0
 62
   230
  6
Continuous
370
    -3
390
F
  0
LAYER
  5
7F
330
2
100
AcDbSymbolTableRecord
100
AcDbLayerTableRecord
  2
MERKEZ_CIZGILERI
 70
     0
 62
    30
  6
Continuous
370
    -3
390
F
  0
LAYER
  5
80
330
2
100
AcDbSymbolTableRecord
100
AcDbLayerTableRecord
  2
KESIT-DETAY_CIZGILERI
 70
     0
 62
     7
  6
Continuous
370
    -3
390
F
  0
LAYER
  5
81
330
2
100
AcDbSymbolTableRecord
100
AcDbLayerTableRecord
  2
\U+041E\U+0421\U+0415\U+0412\U+042B\U+0415
 70
     0
 62
     7
  6
Continuous
370
    -3
390
F
  0
LAYER
  5
82
330
2
100
AcDbSymbolTableRecord
100
AcDbLayerTableRecord
  2
\U+0412\U+041E\U+0414\U+042F\U+041D\U+042B\U+0415_\U+0417\U+041D\U+0410\U+041A\U+0418
 70
     0
 62
    11
  6
Continuous
370
    -3
390
F
  0
ENDTAB
  0
TABLE
  2
STYLE
  5
3
330
0
100
AcDbSymbolTable
 70
     1
  0
STYLE
  5
11
330
3
100
AcDbSymbolTableRecord
100
AcDbTextStyleTableRecord
  2
Standard
 70
     0
 40
0.0
 41
1.0
 50
0.0
 71
     0
 42
3.5
  3
txt
  4

  0
ENDTAB
  0
TABLE
  2
VIEW
  5
6
330
0
100
AcDbSymbolTable
 70
     0
  0
ENDTAB
  0
TABLE
  2
UCS
  5
7
330
0
100
AcDbSymbolTable
 70
     0
  0
ENDTAB
  0
TABLE
  2
APPID
  5
9
330
0
100
AcDbSymbolTable
 70
     1
  0
APPID
  5
12
330
9
100
AcDbSymbolTableRecord
100
AcDbRegAppTableRecord
  2
ACAD
 70
     0
  0
ENDTAB
  0
TABLE
  2
DIMSTYLE
  5
A
330
0
100
AcDbSymbolTable
 70
     1
100
AcDbDimStyleTable
  0
DIMSTYLE
105
27
330
A
100
AcDbSymbolTableRecord
100
AcDbDimStyleTableRecord
  2
ISO-25
 70
     0
 41
2.5
 42
0.625
 43
3.75
 44
1.25
 73
     0
 74
     0
 77
     1
 78
     8
140
2.5
141
2.5
143
0.0393700787
147
0.625
171
     3
172
     1
178
     0
271
     2
272
     2
274
     3
278
    44
283
     0
284
     8
340
11
  0
ENDTAB
  0
TABLE
  2
BLOCK_RECORD
  5
1
330
0
100
AcDbSymbolTable
 70
     2
  0
BLOCK_RECORD
  5
1F
330
1
100
AcDbSymbolTableRecord
100
AcDbBlockTableRecord
  2
*Model_Space
340
22
  0
BLOCK_RECORD
  5
1B
330
1
100
AcDbSymbolTableRecord
100
AcDbBlockTableRecord
  2
*Paper_Space
340
1E
  0
BLOCK_RECORD
  5
23
330
1
100
AcDbSymbolTableRecord
100
AcDbBlockTableRecord
  2
*Paper_Space0
340
26
  0
BLOCK_RECORD
  5
87
330
1
100
AcDbSymbolTableRecord
100
AcDbBlockTableRecord
  2
SW_CENTERMARKSYMBOL_0
340
0
102
{BLKREFS
331
92
102
}
  0
ENDTAB
  0
ENDSEC
  0
SECTION
  2
BLOCKS
  0
BLOCK
  5
20
330
1F
100
AcDbEntity
  8
0
100
AcDbBlockBegin
  2
*Model_Space
 70
     0
 10
0.0
 20
0.0
 30
0.0
  3
*Model_Space
  1

  0
ENDBLK
  5
21
330
1F
100
AcDbEntity
  8
0
100
AcDbBlockEnd
  0
BLOCK
  5
1C
330
1B
100
AcDbEntity
 67
     1
  8
0
100
AcDbBlockBegin
  2
*Paper_Space
 70
     0
 10
0.0
 20
0.0
 30
0.0
  3
*Paper_Space
  1

  0
ENDBLK
  5
1D
330
1B
100
AcDbEntity
 67
     1
  8
0
100
AcDbBlockEnd
  0
BLOCK
  5
24
330
23
100
AcDbEntity
  8
0
100
AcDbBlockBegin
  2
*Paper_Space0
 70
     0
 10
0.0
 20
0.0
 30
0.0
  3
*Paper_Space0
  1

  0
ENDBLK
  5
25
330
23
100
AcDbEntity
  8
0
100
AcDbBlockEnd
  0
BLOCK
  5
88
330
87
100
AcDbEntity
  8
0
100
AcDbBlockBegin
  2
SW_CENTERMARKSYMBOL_0
 70
     0
 10
0.0
 20
0.0
 30
0.0
  3
SW_CENTERMARKSYMBOL_0
  1

  0
LINE
  5
8A
330
87
100
AcDbEntity
  8
FORMAT
 62
     0
100
AcDbLine
 10
0.0
 20
0.0
 30
0.0
 11
0.0
 21
2.5
 31
0.0
  0
LINE
  5
8B
330
87
100
AcDbEntity
  8
FORMAT
 62
     0
100
AcDbLine
 10
0.0
 20
0.0
 30
0.0
 11
-2.5
 21
0.0
 31
0.0
  0
LINE
  5
8C
330
87
100
AcDbEntity
  8
FORMAT
 62
     0
100
AcDbLine
 10
0.0
 20
0.0
 30
0.0
 11
0.0
 21
-2.5
 31
0.0
  0
LINE
  5
8D
330
87
100
AcDbEntity
  8
FORMAT
 62
     0
100
AcDbLine
 10
0.0
 20
0.0
 30
0.0
 11
2.5
 21
0.0
 31
0.0
  0
LINE
  5
8E
330
87
100
AcDbEntity
  8
FORMAT
 62
     0
100
AcDbLine
 10
0.0
 20
5.0
 30
0.0
 11
0.0
 21
41.5
 31
0.0
  0
LINE
  5
8F
330
87
100
AcDbEntity
  8
FORMAT
 62
     0
100
AcDbLine
 10
-5.0
 20
0.0
 30
0.0
 11
-41.5
 21
0.0
 31
0.0
  0
LINE
  5
90
330
87
100
AcDbEntity
  8
FORMAT
 62
     0
100
AcDbLine
 10
0.0
 20
-5.0
 30
0.0
 11
0.0
 21
-41.5
 31
0.0
  0
LINE
  5
91
330
87
100
AcDbEntity
  8
FORMAT
 62
     0
100
AcDbLine
 10
5.0
 20
0.0
 30
0.0
 11
41.5
 21
0.0
 31
0.0
  0
ENDBLK
  5
89
330
87
100
AcDbEntity
  8
0
100
AcDbBlockEnd
  0
ENDSEC
  0
SECTION
  2
ENTITIES
  0
CIRCLE
  5
83
330
1F
100
AcDbEntity
  8
0
  6
Continuous
 62
     7
370
    25
100
AcDbCircle
 10
142.9934680851
 20
107.3680558528
 30
0.0
 40
20.0
  0
CIRCLE
  5
84
330
1F
100
AcDbEntity
  8
0
  6
Continuous
 62
     7
370
    25
100
AcDbCircle
 10
142.9934680851
 20
107.3680558528
 30
0.0
 40
16.30000000000001
  0
CIRCLE
  5
85
330
1F
100
AcDbEntity
  8
0
  6
Continuous
 62
     7
370
    25
100
AcDbCircle
 10
142.9934680851
 20
107.3680558528
 30
0.0
 40
25.5
  0
CIRCLE
  5
86
330
1F
100
AcDbEntity
  8
0
  6
Continuous
 62
     7
370
    25
100
AcDbCircle
 10
142.9934680851
 20
107.3680558528
 30
0.0
 40
39.0
  0
INSERT
  5
92
330
1F
100
AcDbEntity
  8
FORMAT
 62
     7
100
AcDbBlockReference
  2
SW_CENTERMARKSYMBOL_0
 10
142.9934680851
 20
107.3680558528
 30
0.0
  0
LINE
  5
93
330
1F
100
AcDbEntity
  8
0
  6
Continuous
 62
     7
370
    25
100
AcDbLine
 10
181.9934680851
 20
168.3290064326
 30
0.0
 11
181.9934680851
 21
179.3290064326
 31
0.0
  0
LINE
  5
94
330
1F
100
AcDbEntity
  8
0
  6
Continuous
 62
     7
370
    25
100
AcDbLine
 10
103.9934680851
 20
179.3290064326
 30
0.0
 11
103.9934680851
 21
168.3290064326
 31
0.0
  0
LINE
  5
95
330
1F
100
AcDbEntity
  8
0
  6
Continuous
 62
     7
370
    25
100
AcDbLine
 10
168.4934680851
 20
179.3290064326
 30
0.0
 11
162.9934680851
 21
196.3290064326
 31
0.0
  0
LINE
  5
96
330
1F
100
AcDbEntity
  8
0
  6
Continuous
 62
     7
370
    25
100
AcDbLine
 10
122.9934680851
 20
196.3290064326
 30
0.0
 11
117.4934680851
 21
179.3290064326
 31
0.0
  0
LINE
  5
97
330
1F
100
AcDbEntity
  8
0
  6
Continuous
 62
     7
370
    25
100
AcDbLine
 10
162.9934680851
 20
196.3290064326
 30
0.0
 11
162.9934680851
 21
256.3290064326
 31
0.0
  0
LINE
  5
98
330
1F
100
AcDbEntity
  8
0
  6
Continuous
 62
     7
370
    25
100
AcDbLine
 10
122.9934680851
 20
256.3290064326
 30
0.0
 11
122.9934680851
 21
196.3290064326
 31
0.0
  0
LINE
  5
99
330
1F
100
AcDbEntity
  8
0
  6
Continuous
 62
     7
370
    25
100
AcDbLine
 10
181.9934680851
 20
168.3290064326
 30
0.0
 11
103.9934680851
 21
168.3290064326
 31
0.0
  0
LINE
  5
9A
330
1F
100
AcDbEntity
  8
0
  6
Continuous
 62
     7
370
    25
100
AcDbLine
 10
181.9934680851
 20
179.3290064326
 30
0.0
 11
103.9934680851
 21
179.3290064326
 31
0.0
  0
LINE
  5
9B
330
1F
100
AcDbEntity
  8
0
  6
Continuous
 62
     7
370
    25
100
AcDbLine
 10
162.9934680851
 20
196.3290064326
 30
0.0
 11
122.9934680851
 21
196.3290064326
 31
0.0
  0
LINE
  5
9C
330
1F
100
AcDbEntity
  8
0
  6
Continuous
 62
     7
370
    25
100
AcDbLine
 10
162.9934680851
 20
256.3290064326
 30
0.0
 11
122.9934680851
 21
256.3290064326
 31
0.0
  0
LINE
  5
9D
330
1F
100
AcDbEntity
  8
0
  6
Continuous
 62
     7
370
    25
100
AcDbLine
 10
81.2088917154
 20
146.3680558528
 30
0.0
 11
70.2088917154
 21
146.3680558528
 31
0.0
  0
LINE
  5
9E
330
1F
100
AcDbEntity
  8
0
  6
Continuous
 62
     7
370
    25
100
AcDbLine
 10
70.2088917154
 20
68.3680558528
 30
0.0
 11
81.2088917154
 21
68.3680558528
 31
0.0
  0
LINE
  5
9F
330
1F
100
AcDbEntity
  8
0
  6
Continuous
 62
     7
370
    25
100
AcDbLine
 10
70.2088917154
 20
132.8680558528
 30
0.0
 11
53.2088917154
 21
127.3680558528
 31
0.0
  0
LINE
  5
A0
330
1F
100
AcDbEntity
  8
0
  6
Continuous
 62
     7
370
    25
100
AcDbLine
 10
53.2088917154
 20
87.3680558528
 30
0.0
 11
70.2088917154
 21
81.8680558528
 31
0.0
  0
LINE
  5
A1
330
1F
100
AcDbEntity
  8
0
  6
Continuous
 62
     7
370
    25
100
AcDbLine
 10
53.2088917154
 20
127.3680558528
 30
0.0
 11
-6.7911082846
 21
127.3680558528
 31
0.0
  0
LINE
  5
A2
330
1F
100
AcDbEntity
  8
0
  6
Continuous
 62
     7
370
    25
100
AcDbLine
 10
-6.7911082846
 20
87.3680558528
 30
0.0
 11
53.2088917154
 21
87.3680558528
 31
0.0
  0
LINE
  5
A3
330
1F
100
AcDbEntity
  8
0
  6
Continuous
 62
     7
370
    25
100
AcDbLine
 10
81.2088917154
 20
146.3680558528
 30
0.0
 11
81.2088917154
 21
68.3680558528
 31
0.0
  0
LINE
  5
A4
330
1F
100
AcDbEntity
  8
0
  6
Continuous
 62
     7
370
    25
100
AcDbLine
 10
70.2088917154
 20
146.3680558528
 30
0.0
 11
70.2088917154
 21
68.3680558528
 31
0.0
  0
LINE
  5
A5
330
1F
100
AcDbEntity
  8
0
  6
Continuous
 62
     7
370
    25
100
AcDbLine
 10
53.2088917154
 20
127.3680558528
 30
0.0
 11
53.2088917154
 21
87.3680558528
 31
0.0
  0
LINE
  5
A6
330
1F
100
AcDbEntity
  8
0
  6
Continuous
 62
     7
370
    25
100
AcDbLine
 10
-6.7911082846
 20
127.3680558528
 30
0.0
 11
-6.7911082846
 21
87.3680558528
 31
0.0
  0
LINE
  5
A7
330
1F
100
AcDbEntity
  8
0
  6
Continuous
 62
     7
370
    25
100
AcDbLine
 10
218.171569296
 20
68.3680558528
 30
0.0
 11
229.171569296
 21
68.3680558528
 31
0.0
  0
LINE
  5
A8
330
1F
100
AcDbEntity
  8
0
  6
Continuous
 62
     7
370
    25
100
AcDbLine
 10
229.171569296
 20
146.3680558528
 30
0.0
 11
218.171569296
 21
146.3680558528
 31
0.0
  0
LINE
  5
A9
330
1F
100
AcDbEntity
  8
0
  6
Continuous
 62
     7
370
    25
100
AcDbLine
 10
229.171569296
 20
81.8680558528
 30
0.0
 11
246.171569296
 21
87.3680558528
 31
0.0
  0
LINE
  5
AA
330
1F
100
AcDbEntity
  8
0
  6
Continuous
 62
     7
370
    25
100
AcDbLine
 10
246.171569296
 20
127.3680558528
 30
0.0
 11
229.171569296
 21
132.8680558528
 31
0.0
  0
LINE
  5
AB
330
1F
100
AcDbEntity
  8
0
  6
Continuous
 62
     7
370
    25
100
AcDbLine
 10
246.171569296
 20
87.3680558528
 30
0.0
 11
306.171569296
 21
87.3680558528
 31
0.0
  0
LINE
  5
AC
330
1F
100
AcDbEntity
  8
0
  6
Continuous
 62
     7
370
    25
100
AcDbLine
 10
306.171569296
 20
127.3680558528
 30
0.0
 11
246.171569296
 21
127.3680558528
 31
0.0
  0
LINE
  5
AD
330
1F
100
AcDbEntity
  8
0
  6
Continuous
 62
     7
370
    25
100
AcDbLine
 10
218.171569296
 20
107.3680558528
 30
0.0
 11
218.171569296
 21
146.3680558528
 31
0.0
  0
LINE
  5
AE
330
1F
100
AcDbEntity
  8
0
  6
Continuous
 62
     7
370
    25
100
AcDbLine
 10
218.171569296
 20
68.3680558528
 30
0.0
 11
218.171569296
 21
107.3680558528
 31
0.0
  0
LINE
  5
AF
330
1F
100
AcDbEntity
  8
0
  6
Continuous
 62
     7
370
    25
100
AcDbLine
 10
229.171569296
 20
107.3680558528
 30
0.0
 11
229.171569296
 21
146.3680558528
 31
0.0
  0
LINE
  5
B0
330
1F
100
AcDbEntity
  8
0
  6
Continuous
 62
     7
370
    25
100
AcDbLine
 10
229.171569296
 20
68.3680558528
 30
0.0
 11
229.171569296
 21
107.3680558528
 31
0.0
  0
LINE
  5
B1
330
1F
100
AcDbEntity
  8
0
  6
Continuous
 62
     7
370
    25
100
AcDbLine
 10
246.171569296
 20
107.3680558528
 30
0.0
 11
246.171569296
 21
127.3680558528
 31
0.0
  0
LINE
  5
B2
330
1F
100
AcDbEntity
  8
0
  6
Continuous
 62
     7
370
    25
100
AcDbLine
 10
246.171569296
 20
87.3680558528
 30
0.0
 11
246.171569296
 21
107.3680558528
 31
0.0
  0
LINE
  5
B3
330
1F
100
AcDbEntity
  8
0
  6
Continuous
 62
     7
370
    25
100
AcDbLine
 10
306.171569296
 20
107.3680558528
 30
0.0
 11
306.171569296
 21
127.3680558528
 31
0.0
  0
LINE
  5
B4
330
1F
100
AcDbEntity
  8
0
  6
Continuous
 62
     7
370
    25
100
AcDbLine
 10
306.171569296
 20
87.3680558528
 30
0.0
 11
306.171569296
 21
107.3680558528
 31
0.0
  0
LINE
  5
B5
330
1F
100
AcDbEntity
  8
0
  6
Continuous
 62
     7
370
    25
100
AcDbLine
 10
103.9934680851
 20
45.5880265289
 30
0.0
 11
103.9934680851
 21
34.5880265289
 31
0.0
  0
LINE
  5
B6
330
1F
100
AcDbEntity
  8
0
  6
Continuous
 62
     7
370
    25
100
AcDbLine
 10
181.9934680851
 20
34.5880265289
 30
0.0
 11
181.9934680851
 21
45.5880265289
 31
0.0
  0
LINE
  5
B7
330
1F
100
AcDbEntity
  8
0
  6
Continuous
 62
     7
370
    25
100
AcDbLine
 10
117.4934680851
 20
34.5880265289
 30
0.0
 11
122.9934680851
 21
17.5880265289
 31
0.0
  0
LINE
  5
B8
330
1F
100
AcDbEntity
  8
0
  6
Continuous
 62
     7
370
    25
100
AcDbLine
 10
162.9934680851
 20
17.5880265289
 30
0.0
 11
168.4934680851
 21
34.5880265289
 31
0.0
  0
LINE
  5
B9
330
1F
100
AcDbEntity
  8
0
  6
Continuous
 62
     7
370
    25
100
AcDbLine
 10
122.9934680851
 20
17.5880265289
 30
0.0
 11
122.9934680851
 21
-42.4119734711
 31
0.0
  0
LINE
  5
BA
330
1F
100
AcDbEntity
  8
0
  6
Continuous
 62
     7
370
    25
100
AcDbLine
 10
162.9934680851
 20
-42.4119734711
 30
0.0
 11
162.9934680851
 21
17.5880265289
 31
0.0
  0
LINE
  5
BB
330
1F
100
AcDbEntity
  8
0
  6
Continuous
 62
     7
370
    25
100
AcDbLine
 10
103.9934680851
 20
45.5880265289
 30
0.0
 11
181.9934680851
 21
45.5880265289
 31
0.0
  0
LINE
  5
BC
330
1F
100
AcDbEntity
  8
0
  6
Continuous
 62
     7
370
    25
100
AcDbLine
 10
103.9934680851
 20
34.5880265289
 30
0.0
 11
181.9934680851
 21
34.5880265289
 31
0.0
  0
LINE
  5
BD
330
1F
100
AcDbEntity
  8
0
  6
Continuous
 62
     7
370
    25
100
AcDbLine
 10
122.9934680851
 20
17.5880265289
 30
0.0
 11
162.9934680851
 21
17.5880265289
 31
0.0
  0
LINE
  5
BE
330
1F
100
AcDbEntity
  8
0
  6
Continuous
 62
     7
370
    25
100
AcDbLine
 10
122.9934680851
 20
-42.4119734711
 30
0.0
 11
162.9934680851
 21
-42.4119734711
 31
0.0
  0
LINE
  5
BF
330
1F
100
AcDbEntity
  8
0
  6
Continuous
 62
     7
370
    25
100
AcDbLine
 10
237.6869522021
 20
27.7364767376
 30
0.0
 11
209.6852288663
 21
0.4059363294
 31
0.0
  0
LINE
  5
C0
330
1F
100
AcDbEntity
  8
0
  6
Continuous
 62
     7
370
    25
100
AcDbLine
 10
237.6243552123
 20
-28.2193185869
 30
0.0
 11
265.6260785481
 21
-0.8887781787
 31
0.0
  0
LINE
  5
C1
330
1F
100
AcDbEntity
  8
0
  6
Continuous
 62
     7
370
    25
100
AcDbLine
 10
237.8838906495
 20
32.9981488284
 30
0.0
 11
235.5688457527
 21
25.6691399095
 31
0.0
  0
LINE
  5
C2
330
1F
100
AcDbEntity
  8
0
  6
Continuous
 62
     7
370
    25
100
AcDbLine
 10
263.5079720987
 20
-2.9561150068
 30
0.0
 11
270.8909795247
 21
-0.8195275511
 31
0.0
  0
LINE
  5
C3
330
1F
100
AcDbEntity
  8
0
  6
Continuous
 62
     7
370
    25
100
AcDbLine
 10
237.4833380777
 20
54.0877250133
 30
0.0
 11
232.3496887995
 21
49.0771259385
 31
0.0
  0
LINE
  5
C4
330
1F
100
AcDbEntity
  8
0
  6
Continuous
 62
     7
370
    25
100
AcDbLine
 10
286.8309851743
 20
-6.7421211482
 30
0.0
 11
291.9646344525
 21
-1.7315220734
 31
0.0
  0
LWPOLYLINE
  5
C5
330
1F
100
AcDbEntity
  8
0
  6
Continuous
 62
     7
370
    25
100
AcDbPolyline
 90
       91
 70
   128
 43
0.0
 10
205.9664296057
 20
-9.0993732351
 10
206.0095175676
 20
-7.9152242538
 10
206.138571533
 20
-6.7602650968
 10
206.352962764
 20
-5.6401226091
 10
206.651646768
 20
-4.5602540122
 10
207.0331683867
 20
-3.5259203175
 10
207.495668885
 20
-2.5421606947
 10
208.0368950069
 20
-1.6137679219
 10
208.6542099534
 20
-0.7452650352
 10
209.3446062279
 20
0.0591167066
 10
210.1047202892
 20
0.7954584364
 10
210.930848938
 20
1.4601727714
 10
211.8189673586
 20
2.0500212901
 10
212.7647487273
 20
2.5621303099
 10
213.7635852924
 20
2.994004887
 10
214.8106108225
 20
3.3435409721
 10
215.9007243144
 20
3.6090356603
 10
217.0286148449
 20
3.7891954883
 10
218.1887874446
 20
3.8831427355
 10
219.3755898693
 20
3.8904197003
 10
220.5832401368
 20
3.8109909301
 10
221.8058546964
 20
3.6452433939
 10
223.0374770928
 20
3.393984597
 10
224.2721069857
 20
3.0584386471
 10
225.5037293822
 20
2.6402402902
 10
226.7263439418
 20
2.1414269467
 10
227.9339942092
 20
1.5644287851
 10
229.1207966339
 20
0.9120568825
 10
230.2809692336
 20
0.1874895291
 10
231.4088597641
 20
-0.6057432557
 10
232.498973256
 20
-1.4637769216
 10
233.5459987861
 20
-2.3824312147
 10
234.5448353512
 20
-3.3572305437
 10
235.4906167199
 20
-4.3834257842
 10
236.3787351405
 20
-5.4560174163
 10
237.2048637894
 20
-6.5697798811
 10
237.9649778507
 20
-7.7192870401
 10
238.6553741252
 20
-8.8989386099
 10
239.2726890716
 20
-10.1029874465
 10
239.8139151936
 20
-11.3255675452
 10
240.2764156919
 20
-12.5607226184
 10
240.6579373105
 20
-13.802435115
 10
240.9566213145
 20
-15.0446555364
 10
241.1710125455
 20
-16.2813319096
 10
241.3000665109
 20
-17.5064392716
 10
241.3431544728
 20
-18.7140090225
 10
241.3000665109
 20
-19.8981580038
 10
241.1710125455
 20
-21.0531171608
 10
240.9566213145
 20
-22.1732596485
 10
240.6579373105
 20
-23.2531282453
 10
240.2764156919
 20
-24.28746194
 10
239.8139151936
 20
-25.2712215628
 10
239.2726890716
 20
-26.1996143357
 10
238.6553741252
 20
-27.0681172224
 10
237.9649778507
 20
-27.8724989641
 10
237.2048637894
 20
-28.6088406939
 10
236.3787351405
 20
-29.2735550289
 10
235.4906167199
 20
-29.8634035476
 10
234.5448353512
 20
-30.3755125674
 10
233.5459987861
 20
-30.8073871446
 10
232.498973256
 20
-31.1569232296
 10
231.4088597641
 20
-31.4224179179
 10
230.2809692336
 20
-31.6025777459
 10
229.1207966339
 20
-31.696524993
 10
227.9339942092
 20
-31.7038019579
 10
226.7263439418
 20
-31.6243731877
 10
225.5037293822
 20
-31.4586256515
 10
224.2721069857
 20
-31.2073668546
 10
223.0374770928
 20
-30.8718209046
 10
221.8058546964
 20
-30.4536225478
 10
220.5832401368
 20
-29.9548092043
 10
219.3755898693
 20
-29.3778110427
 10
218.1887874446
 20
-28.72543914
 10
217.0286148449
 20
-28.0008717866
 10
215.9007243144
 20
-27.2076390018
 10
214.8106108225
 20
-26.349605336
 10
213.7635852924
 20
-25.4309510429
 10
212.7647487273
 20
-24.4561517139
 10
211.8189673586
 20
-23.4299564733
 10
210.930848938
 20
-22.3573648413
 10
210.1047202892
 20
-21.2436023764
 10
209.3446062279
 20
-20.0940952174
 10
208.6542099534
 20
-18.9144436477
 10
208.0368950069
 20
-17.710394811
 10
207.495668885
 20
-16.4878147124
 10
207.0331683867
 20
-15.2526596391
 10
206.651646768
 20
-14.0109471426
 10
206.352962764
 20
-12.7687267212
 10
206.138571533
 20
-11.532050348
 10
206.0095175676
 20
-10.306942986
 10
205.9664296057
 20
-9.0993732351
  0
LWPOLYLINE
  5
C6
330
1F
100
AcDbEntity
  8
0
  6
Continuous
 62
     7
370
    25
100
AcDbPolyline
 90
       82
 70
   128
 43
0.0
 10
209.2387766559
 20
-9.9887270454
 10
209.2821264623
 20
-8.9177978984
 10
209.4119151706
 20
-7.8768725422
 10
209.6273622163
 20
-6.8722112246
 10
209.9271718755
 20
-5.9098560967
 10
210.3095410576
 20
-4.9955948757
 10
210.7721701493
 20
-4.1349260361
 10
211.3122768449
 20
-3.3330257416
 10
211.9266128792
 20
-2.5947167148
 10
212.6114835629
 20
-1.9244392332
 10
213.3627700033
 20
-1.3262244243
 10
214.1759538751
 20
-0.8036700225
 10
215.046144595
 20
-0.3599187314
 10
215.9681087335
 20
0.0023606765
 10
216.9363014899
 20
0.2809894103
 10
217.944900039
 20
0.474291764
 10
218.9878385504
 20
0.5811051944
 10
220.0588446693
 20
0.600787313
 10
221.1514772387
 20
0.5332197492
 10
222.2591650379
 20
0.3788088624
 10
223.3752463021
 20
0.1384832977
 10
224.4930087873
 20
-0.1863115986
 10
225.6057301383
 20
-0.5936224718
 10
226.706718318
 20
-1.0809997063
 10
227.789351854
 20
-1.6455121583
 10
228.8471196608
 20
-2.2837647832
 10
229.8736601983
 20
-2.9919190548
 10
230.8627997309
 20
-3.7657160499
 10
231.8085894572
 20
-4.6005020624
 10
232.7053412864
 20
-5.4912565909
 10
233.5476620475
 20
-6.432622533
 10
234.3304859243
 20
-7.418938403
 10
235.0491049219
 20
-8.4442723813
 10
235.6991971812
 20
-9.5024579886
 10
236.2768529707
 20
-10.5871311723
 10
236.7785982007
 20
-11.6917685802
 10
237.2014153161
 20
-12.8097267929
 10
237.5427614453
 20
-13.9342822781
 10
237.8005836923
 20
-15.058671827
 10
237.9733314838
 20
-16.1761332284
 10
238.0599658943
 20
-17.2799459379
 10
238.0599658943
 20
-18.3634714962
 10
237.9733314838
 20
-19.4201934529
 10
237.8005836923
 20
-20.4437565578
 10
237.5427614453
 20
-21.4280049822
 10
237.2014153161
 20
-22.36701934
 10
236.7785982007
 20
-23.2551522884
 10
236.2768529707
 20
-24.0870624915
 10
235.6991971812
 20
-24.8577467433
 10
235.0491049219
 20
-25.5625700581
 10
234.3304859243
 20
-26.1972935456
 10
233.5476620475
 20
-26.7580999039
 10
232.7053412864
 20
-27.2416163777
 10
231.8085894572
 20
-27.6449350421
 10
230.8627997309
 20
-27.965630291
 10
229.8736601983
 20
-28.2017734256
 10
228.8471196608
 20
-28.3519442532
 10
227.789351854
 20
-28.4152396288
 10
226.706718318
 20
-28.3912788866
 10
225.6057301383
 20
-28.2802061293
 10
224.4930087873
 20
-28.0826893616
 10
223.3752463021
 20
-27.7999164724
 10
222.2591650379
 20
-27.4335880914
 10
221.1514772387
 20
-26.9859073603
 10
220.0588446693
 20
-26.4595666839
 10
218.9878385504
 20
-25.8577315368
 10
217.944900039
 20
-25.1840214266
 10
216.9363014899
 20
-24.4424881249
 10
215.9681087335
 20
-23.6375913005
 10
215.046144595
 20
-22.7741716974
 10
214.1759538751
 20
-21.8574220229
 10
213.3627700033
 20
-20.8928557172
 10
212.6114835629
 20
-19.8862737956
 10
211.9266128792
 20
-18.8437299603
 10
211.3122768449
 20
-17.7714941926
 10
210.7721701493
 20
-16.6760150444
 10
210.3095410576
 20
-15.5638808564
 10
209.9271718755
 20
-14.4417801344
 10
209.6273622163
 20
-13.3164613242
 10
209.4119151706
 20
-12.1946922254
 10
209.2821264623
 20
-11.0832192895
 10
209.2387766559
 20
-9.9887270454
  0
LWPOLYLINE
  5
C7
330
1F
100
AcDbEntity
  8
0
  6
Continuous
 62
     7
370
    25
100
AcDbPolyline
 90
       47
 70
   128
 43
0.0
 10
237.6869522021
 20
27.7364767376
 10
238.106443625
 20
28.1259988446
 10
238.9325722738
 20
28.7907131796
 10
239.8206906944
 20
29.3805616983
 10
240.7664720631
 20
29.8926707181
 10
241.7653086282
 20
30.3245452953
 10
242.8123341583
 20
30.6740813803
 10
243.9024476503
 20
30.9395760686
 10
245.0303381807
 20
31.1197358966
 10
246.1905107804
 20
31.2136831437
 10
247.3773132051
 20
31.2209601086
 10
248.5849634726
 20
31.1415313384
 10
249.8075780322
 20
30.9757838022
 10
251.0392004286
 20
30.7245250053
 10
252.2738303215
 20
30.3889790553
 10
253.505452718
 20
29.9707806985
 10
254.7280672776
 20
29.471967355
 10
255.935717545
 20
28.8949691934
 10
257.1225199697
 20
28.2425972907
 10
258.2826925694
 20
27.5180299373
 10
259.4105830999
 20
26.7247971525
 10
260.5006965918
 20
25.8667634867
 10
261.5477221219
 20
24.9481091936
 10
262.546558687
 20
23.9733098646
 10
263.4923400557
 20
22.947114624
 10
264.3804584763
 20
21.874522992
 10
265.2065871252
 20
20.7607605271
 10
265.9667011865
 20
19.6112533681
 10
266.657097461
 20
18.4316017984
 10
267.2744124074
 20
17.2275529617
 10
267.8156385294
 20
16.0049728631
 10
268.2781390277
 20
14.7698177898
 10
268.6596606463
 20
13.5281052933
 10
268.9583446504
 20
12.2858848719
 10
269.1727358813
 20
11.0492084987
 10
269.3017898467
 20
9.8241011367
 10
269.3448778086
 20
8.6165313858
 10
269.3017898467
 20
7.4323824045
 10
269.1727358813
 20
6.2774232475
 10
268.9583446504
 20
5.1572807598
 10
268.6596606463
 20
4.0774121629
 10
268.2781390277
 20
3.0430784682
 10
267.8156385294
 20
2.0593188454
 10
267.2744124074
 20
1.1309260726
 10
266.657097461
 20
0.2624231859
 10
265.9667011865
 20
-0.5419585559
 10
265.6260785481
 20
-0.8887781787
  0
LWPOLYLINE
  5
C8
330
1F
100
AcDbEntity
  8
0
  6
Continuous
 62
     7
370
    25
100
AcDbPolyline
 90
       65
 70
   128
 43
0.0
 10
237.8838906495
 20
32.9981488284
 10
238.0989580477
 20
33.6346389502
 10
238.5606058769
 20
34.7788685678
 10
239.1020266794
 20
35.8714656113
 10
239.7211666607
 20
36.9082854858
 10
240.4156772108
 20
37.8853951785
 10
241.1829238132
 20
38.7990881775
 10
242.0199960388
 20
39.6458985323
 10
242.9237185859
 20
40.4226140013
 10
243.8906633253
 20
41.1262882365
 10
244.9171623045
 20
41.7542519607
 10
245.9993216612
 20
42.3041230923
 10
247.1330363943
 20
42.7738157817
 10
248.3140059355
 20
43.1615483238
 10
249.5377504628
 20
43.4658499161
 10
250.7996278941
 20
43.6855662384
 10
252.094851496
 20
43.8198638316
 10
253.4185080417
 20
43.8682332589
 10
254.7655764487
 20
43.8304910384
 10
256.130946825
 20
43.7067803393
 10
257.5094398531
 20
43.4975704387
 10
258.8958264368
 20
43.2036549414
 10
260.2848475369
 20
42.8261487695
 10
261.6712341206
 20
42.3664839333
 10
263.0497271487
 20
41.8264040989
 10
264.415097525
 20
41.2079579741
 10
265.762165932
 20
40.5134915369
 10
267.0858224778
 20
39.7456391364
 10
268.3810460797
 20
38.9073134998
 10
269.642923511
 20
38.0016946833
 10
270.8666680383
 20
37.0322180093
 10
272.0476375795
 20
36.0025610349
 10
273.1813523126
 20
34.9166296017
 10
274.2635116693
 20
33.7785430196
 10
275.2900106485
 20
32.5926184407
 10
276.2569553879
 20
31.3633544833
 10
277.160677935
 20
30.0954141666
 10
277.9977501606
 20
28.7936072225
 10
278.764996763
 20
27.4628718507
 10
279.459507313
 20
26.1082559862
 10
280.0786472943
 20
24.734898151
 10
280.6200680969
 20
23.3480079617
 10
281.0817159261
 20
21.952846368
 10
281.4618395936
 20
20.5547056955
 10
281.7589971602
 20
19.1588895709
 10
281.9720614054
 20
17.7706928027
 10
282.1002241035
 20
16.3953812967
 10
282.1429990897
 20
15.0381720807
 10
282.1002241035
 20
13.704213514
 10
281.9720614054
 20
12.3985657584
 10
281.7589971602
 20
11.1261815831
 10
281.4618395936
 20
9.891887577
 10
281.0817159261
 20
8.7003658401
 10
280.6200680969
 20
7.5561362225
 10
280.0786472943
 20
6.463539179
 10
279.459507313
 20
5.4267193045
 10
278.764996763
 20
4.4496096118
 10
277.9977501606
 20
3.5359166128
 10
277.160677935
 20
2.689106258
 10
276.2569553879
 20
1.912390789
 10
275.2900106485
 20
1.2087165538
 10
274.2635116693
 20
0.5807528296
 10
273.1813523126
 20
0.030881698
 10
272.0476375795
 20
-0.4388109914
 10
270.8909795247
 20
-0.8195275511
  0
LWPOLYLINE
  5
C9
330
1F
100
AcDbEntity
  8
0
  6
Continuous
 62
     7
370
    25
100
AcDbPolyline
 90
       65
 70
   128
 43
0.0
 10
237.4833380777
 20
54.0877250133
 10
238.3013463524
 20
54.847293122
 10
239.4393362417
 20
55.7877789181
 10
240.6401877547
 20
56.6546503906
 10
241.9009153856
 20
57.4457523605
 10
243.2183847668
 20
58.1591180238
 10
244.5893204617
 20
58.7929738408
 10
246.0103141083
 20
59.3457439463
 10
247.4778328924
 20
59.8160540667
 10
248.9882283312
 20
60.2027349368
 10
250.5377453435
 20
60.5048252071
 10
252.122531586
 20
60.7215738336
 10
253.7386470303
 20
60.8524419451
 10
255.3820737588
 20
60.8971041828
 10
257.0487259538
 20
60.8554495094
 10
258.7344600552
 20
60.7275814849
 10
260.4350850625
 20
60.5138180093
 10
262.146372954
 20
60.2146905325
 10
263.8640691983
 20
59.8309427324
 10
265.5839033319
 20
59.3635286664
 10
267.3015995762
 20
58.8136103997
 10
269.0128874677
 20
58.1825551157
 10
270.713512475
 20
57.4719317172
 10
272.3992465764
 20
56.683506926
 10
274.0658987714
 20
55.8192408904
 10
275.7093254999
 20
54.8812823118
 10
277.3254409442
 20
53.8719631031
 10
278.9102271867
 20
52.7937925909
 10
280.4597441991
 20
51.6494512769
 10
281.9701396378
 20
50.441784174
 10
283.4376584219
 20
49.1737937329
 10
284.8586520685
 20
47.8486323775
 10
286.2295877635
 20
46.4695946679
 10
287.5470571446
 20
45.0401091089
 10
288.8077847755
 20
43.5637296271
 10
290.0086362886
 20
42.0441267343
 10
291.1466261778
 20
40.4850784029
 10
292.218925221
 20
38.8904606725
 10
293.2228675138
 20
37.2642380142
 10
294.1559570974
 20
35.6104534737
 10
295.0158741642
 20
33.9332186199
 10
295.8004808249
 20
32.236703323
 10
296.5078264236
 20
30.5251253873
 10
297.1361523877
 20
28.8027400652
 10
297.6838965999
 20
27.073829478
 10
298.1496972817
 20
25.3426919698
 10
298.5323963794
 20
23.6136314213
 10
298.8310424426
 20
21.8909465493
 10
299.0448929901
 20
20.17892022
 10
299.1734163559
 20
18.4818088006
 10
299.2162930105
 20
16.8038315773
 10
299.1734163559
 20
15.1491602661
 10
299.0448929901
 20
13.5219086404
 10
298.8310424426
 20
11.9261223042
 10
298.5323963794
 20
10.3657686338
 10
298.1496972817
 20
8.8447269143
 10
297.6838965999
 20
7.366778695
 10
297.1361523877
 20
5.935598388
 10
296.5078264236
 20
4.5547441332
 10
295.8004808249
 20
3.2276489517
 10
295.0158741642
 20
1.9576122114
 10
294.1559570974
 20
0.7477914235
 10
293.2228675138
 20
-0.3988056067
 10
292.218925221
 20
-1.4793282584
 10
291.9646344525
 20
-1.7315220734
  0
LWPOLYLINE
  5
CA
330
1F
100
AcDbEntity
  8
0
  6
Continuous
 62
     7
370
    25
100
AcDbPolyline
 90
       98
 70
   128
 43
0.0
 10
225.0980302415
 20
30.5417722878
 10
225.1409068961
 20
32.1964435991
 10
225.2694302618
 20
33.8236952248
 10
225.4832808094
 20
35.4194815609
 10
225.7819268726
 20
36.9798352313
 10
226.1646259702
 20
38.5008769509
 10
226.6304266521
 20
39.9788251702
 10
227.1781708643
 20
41.4100054771
 10
227.8064968284
 20
42.7908597319
 10
228.5138424271
 20
44.1179549134
 10
229.2984490877
 20
45.3879916538
 10
230.1583661546
 20
46.5978124416
 10
231.0914557382
 20
47.7444094718
 10
232.095398031
 20
48.8249321236
 10
233.1676970742
 20
49.8366940472
 10
234.3056869634
 20
50.7771798432
 10
235.5065384765
 20
51.6440513157
 10
236.7672661074
 20
52.4351532857
 10
238.0847354885
 20
53.1485189489
 10
239.4556711835
 20
53.782374766
 10
240.87666483
 20
54.3351448715
 10
242.3441836142
 20
54.8054549918
 10
243.8545790529
 20
55.192135862
 10
245.4040960653
 20
55.4942261323
 10
246.9888823077
 20
55.7109747588
 10
248.6049977521
 20
55.8418428703
 10
250.2484244806
 20
55.886505108
 10
251.9150766756
 20
55.8448504345
 10
253.600810777
 20
55.71698241
 10
255.3014357843
 20
55.5032189345
 10
257.0127236758
 20
55.2040914576
 10
258.7304199201
 20
54.8203436575
 10
260.4502540537
 20
54.3529295916
 10
262.167950298
 20
53.8030113249
 10
263.8792381894
 20
53.1719560408
 10
265.5798631968
 20
52.4613326424
 10
267.2655972982
 20
51.6729078512
 10
268.9322494931
 20
50.8086418155
 10
270.5756762217
 20
49.8706832369
 10
272.191791666
 20
48.8613640282
 10
273.7765779085
 20
47.783193516
 10
275.3260949208
 20
46.6388522021
 10
276.8364903596
 20
45.4311850992
 10
278.3040091437
 20
44.163194658
 10
279.7250027903
 20
42.8380333027
 10
281.0959384852
 20
41.458995593
 10
282.4134078664
 20
40.0295100341
 10
283.6741354972
 20
38.5531305523
 10
284.8749870103
 20
37.0335276595
 10
286.0129768996
 20
35.474479328
 10
287.0852759428
 20
33.8798615977
 10
288.0892182355
 20
32.2536389394
 10
289.0223078192
 20
30.5998543989
 10
289.882224886
 20
28.9226195451
 10
290.6668315466
 20
27.2261042482
 10
291.3741771453
 20
25.5145263124
 10
292.0025031094
 20
23.7921409903
 10
292.5502473216
 20
22.0632304031
 10
293.0160480035
 20
20.3320928949
 10
293.3987471012
 20
18.6030323464
 10
293.6973931644
 20
16.8803474745
 10
293.9112437119
 20
15.1683211452
 10
294.0397670777
 20
13.4712097257
 10
294.0826437323
 20
11.7932325025
 10
294.0397670777
 20
10.1385611912
 10
293.9112437119
 20
8.5113095655
 10
293.6973931644
 20
6.9155232294
 10
293.3987471012
 20
5.355169559
 10
293.0160480035
 20
3.8341278394
 10
292.5502473216
 20
2.3561796201
 10
292.0025031094
 20
0.9249993132
 10
291.3741771453
 20
-0.4558549416
 10
290.6668315466
 20
-1.7829501231
 10
289.882224886
 20
-3.0529868635
 10
289.0223078192
 20
-4.2628076513
 10
288.0892182355
 20
-5.4094046815
 10
287.0852759428
 20
-6.4899273333
 10
286.0129768996
 20
-7.5016892569
 10
284.8749870103
 20
-8.4421750529
 10
283.6741354972
 20
-9.3090465254
 10
282.4134078664
 20
-10.1001484954
 10
281.0959384852
 20
-10.8135141586
 10
279.7250027903
 20
-11.4473699757
 10
278.3040091437
 20
-12.0001400812
 10
276.8364903596
 20
-12.4704502015
 10
275.3260949208
 20
-12.8571310717
 10
273.7765779085
 20
-13.159221342
 10
272.191791666
 20
-13.3759699685
 10
270.5756762217
 20
-13.50683808
 10
268.9322494931
 20
-13.5515003177
 10
267.2655972982
 20
-13.5098456442
 10
265.5798631967
 20
-13.3819776197
 10
263.8792381894
 20
-13.1682141442
 10
262.167950298
 20
-12.8690866673
 10
260.4502540537
 20
-12.4853388672
 10
258.7304199201
 20
-12.0179248013
 10
257.0127236758
 20
-11.4680065346
 10
255.3957365233
 20
-10.8739056204
  0
ARC
  5
CB
330
1F
100
AcDbEntity
  8
0
  6
Continuous
 62
     7
370
    25
100
AcDbCircle
 10
262.8844851993
 20
30.8969962471
 30
0.0
 40
37.78812462063716
100
AcDbArc
 50
180.5386118951
 51
200.3575623206
  0
ENDSEC
  0
SECTION
  2
OBJECTS
  0
DICTIONARY
  5
C
330
0
100
AcDbDictionary
281
     1
  3
ACAD_GROUP
350
D
  3
ACAD_LAYOUT
350
1A
  3
ACAD_MLINESTYLE
350
17
  3
ACAD_PLOTSETTINGS
350
19
  3
ACAD_PLOTSTYLENAME
350
E
  3
ACAD_SCALELIST
350
47
  0
DICTIONARY
  5
D
102
{ACAD_REACTORS
330
C
102
}
330
C
100
AcDbDictionary
281
     1
  0
DICTIONARY
  5
1A
102
{ACAD_REACTORS
330
C
102
}
330
C
100
AcDbDictionary
281
     1
  3
Layout1
350
1E
  3
Layout2
350
26
  3
Model
350
22
  0
DICTIONARY
  5
17
102
{ACAD_REACTORS
330
C
102
}
330
C
100
AcDbDictionary
281
     1
  3
Standard
350
18
  0
DICTIONARY
  5
19
102
{ACAD_REACTORS
330
C
102
}
330
C
100
AcDbDictionary
281
     1
  0
ACDBDICTIONARYWDFLT
  5
E
102
{ACAD_REACTORS
330
C
102
}
330
C
100
AcDbDictionary
281
     1
  3
Normal
350
F
100
AcDbDictionaryWithDefault
340
F
  0
DICTIONARY
  5
47
102
{ACAD_REACTORS
330
C
102
}
330
C
100
AcDbDictionary
281
     1
  3
A0
350
48
  3
A1
350
49
  3
A2
350
4A
  3
A3
350
4B
  3
A4
350
4C
  3
A5
350
4D
  3
A6
350
4E
  3
A7
350
4F
  3
A8
350
50
  3
A9
350
51
  3
B0
350
52
  3
B1
350
53
  3
B2
350
54
  3
B3
350
55
  3
B4
350
56
  3
B5
350
57
  3
B6
350
58
  3
B7
350
59
  3
B8
350
5A
  3
B9
350
5B
  3
C0
350
5C
  3
C1
350
5D
  3
C2
350
5E
  3
C3
350
5F
  3
C4
350
60
  3
C5
350
61
  3
C6
350
62
  3
C7
350
63
  3
C8
350
64
  3
C9
350
65
  3
D0
350
66
  3
D1
350
67
  3
D2
350
68
  0
LAYOUT
  5
1E
102
{ACAD_REACTORS
330
1A
102
}
330
1A
100
AcDbPlotSettings
  1

  2
none_device
  4

  6

 40
0.0
 41
0.0
 42
0.0
 43
0.0
 44
0.0
 45
0.0
 46
0.0
 47
0.0
 48
0.0
 49
0.0
140
0.0
141
0.0
142
1.0
143
1.0
 70
   688
 72
     1
 73
     0
 74
     5
  7

 75
    16
147
1.0
148
0.0
149
0.0
100
AcDbLayout
  1
Layout1
 70
     1
 71
     1
 10
0.0
 20
0.0
 11
420.0
 21
297.0
 12
0.0
 22
0.0
 32
0.0
 14
1.0000000000E+20
 24
1.0000000000E+20
 34
1.0000000000E+20
 15
-1.0000000000E+20
 25
-1.0000000000E+20
 35
-1.0000000000E+20
146
0.0
 13
0.0
 23
0.0
 33
0.0
 16
1.0
 26
0.0
 36
0.0
 17
0.0
 27
1.0
 37
0.0
 76
     0
330
1B
  0
LAYOUT
  5
26
102
{ACAD_REACTORS
330
1A
102
}
330
1A
100
AcDbPlotSettings
  1

  2
none_device
  4

  6

 40
0.0
 41
0.0
 42
0.0
 43
0.0
 44
0.0
 45
0.0
 46
0.0
 47
0.0
 48
0.0
 49
0.0
140
0.0
141
0.0
142
1.0
143
1.0
 70
   688
 72
     1
 73
     0
 74
     5
  7

 75
    16
147
1.0
148
0.0
149
0.0
100
AcDbLayout
  1
Layout2
 70
     1
 71
     2
 10
0.0
 20
0.0
 11
0.0
 21
0.0
 12
0.0
 22
0.0
 32
0.0
 14
0.0
 24
0.0
 34
0.0
 15
0.0
 25
0.0
 35
0.0
146
0.0
 13
0.0
 23
0.0
 33
0.0
 16
1.0
 26
0.0
 36
0.0
 17
0.0
 27
1.0
 37
0.0
 76
     0
330
23
  0
LAYOUT
  5
22
102
{ACAD_REACTORS
330
1A
102
}
330
1A
100
AcDbPlotSettings
  1

  2
none_device
  4
Letter_(8.50_x_11.00_Inches)
  6

 40
6.35
 41
6.35
 42
6.35000508
 43
6.35000508
 44
215.9
 45
279.4
 46
0.0
 47
0.0
 48
0.0
 49
0.0
140
0.0
141
0.0
142
1.0
143
1.0
 70
  1712
 72
     1
 73
     0
 74
     0
  7

 75
     0
147
1.0
148
0.0
149
0.0
100
AcDbLayout
  1
Model
 70
     1
 71
     0
 10
0.0
 20
0.0
 11
279.4
 21
215.9
 12
0.0
 22
0.0
 32
0.0
 14
0.0
 24
0.0
 34
0.0
 15
279.4
 25
215.9
 35
0.0
146
0.0
 13
0.0
 23
0.0
 33
0.0
 16
1.0
 26
0.0
 36
0.0
 17
0.0
 27
1.0
 37
0.0
 76
     0
330
1F
331
29
  0
MLINESTYLE
  5
18
102
{ACAD_REACTORS
330
17
102
}
330
17
100
AcDbMlineStyle
  2
Standard
 70
     0
  3

 62
   256
 51
90.0
 52
90.0
 71
     2
 49
0.5
 62
   256
  6
BYLAYER
 49
-0.5
 62
   256
  6
BYLAYER
  0
ACDBPLACEHOLDER
  5
F
102
{ACAD_REACTORS
330
E
102
}
330
E
  0
SCALE
  5
48
102
{ACAD_REACTORS
330
47
102
}
330
47
100
AcDbScale
 70
     0
300
1:1
140
1.0
141
1.0
290
     1
  0
SCALE
  5
49
102
{ACAD_REACTORS
330
47
102
}
330
47
100
AcDbScale
 70
     0
300
1:2
140
1.0
141
2.0
290
     0
  0
SCALE
  5
4A
102
{ACAD_REACTORS
330
47
102
}
330
47
100
AcDbScale
 70
     0
300
1:4
140
1.0
141
4.0
290
     0
  0
SCALE
  5
4B
102
{ACAD_REACTORS
330
47
102
}
330
47
100
AcDbScale
 70
     0
300
1:5
140
1.0
141
5.0
290
     0
  0
SCALE
  5
4C
102
{ACAD_REACTORS
330
47
102
}
330
47
100
AcDbScale
 70
     0
300
1:8
140
1.0
141
8.0
290
     0
  0
SCALE
  5
4D
102
{ACAD_REACTORS
330
47
102
}
330
47
100
AcDbScale
 70
     0
300
1:10
140
1.0
141
10.0
290
     0
  0
SCALE
  5
4E
102
{ACAD_REACTORS
330
47
102
}
330
47
100
AcDbScale
 70
     0
300
1:16
140
1.0
141
16.0
290
     0
  0
SCALE
  5
4F
102
{ACAD_REACTORS
330
47
102
}
330
47
100
AcDbScale
 70
     0
300
1:20
140
1.0
141
20.0
290
     0
  0
SCALE
  5
50
102
{ACAD_REACTORS
330
47
102
}
330
47
100
AcDbScale
 70
     0
300
1:30
140
1.0
141
30.0
290
     0
  0
SCALE
  5
51
102
{ACAD_REACTORS
330
47
102
}
330
47
100
AcDbScale
 70
     0
300
1:40
140
1.0
141
40.0
290
     0
  0
SCALE
  5
52
102
{ACAD_REACTORS
330
47
102
}
330
47
100
AcDbScale
 70
     0
300
1:50
140
1.0
141
50.0
290
     0
  0
SCALE
  5
53
102
{ACAD_REACTORS
330
47
102
}
330
47
100
AcDbScale
 70
     0
300
1:100
140
1.0
141
100.0
290
     0
  0
SCALE
  5
54
102
{ACAD_REACTORS
330
47
102
}
330
47
100
AcDbScale
 70
     0
300
2:1
140
2.0
141
1.0
290
     0
  0
SCALE
  5
55
102
{ACAD_REACTORS
330
47
102
}
330
47
100
AcDbScale
 70
     0
300
4:1
140
4.0
141
1.0
290
     0
  0
SCALE
  5
56
102
{ACAD_REACTORS
330
47
102
}
330
47
100
AcDbScale
 70
     0
300
8:1
140
8.0
141
1.0
290
     0
  0
SCALE
  5
57
102
{ACAD_REACTORS
330
47
102
}
330
47
100
AcDbScale
 70
     0
300
10:1
140
10.0
141
1.0
290
     0
  0
SCALE
  5
58
102
{ACAD_REACTORS
330
47
102
}
330
47
100
AcDbScale
 70
     0
300
100:1
140
100.0
141
1.0
290
     0
  0
SCALE
  5
59
102
{ACAD_REACTORS
330
47
102
}
330
47
100
AcDbScale
 70
     0
300
1/128" = 1'-0"
140
0.0078125
141
12.0
290
     0
  0
SCALE
  5
5A
102
{ACAD_REACTORS
330
47
102
}
330
47
100
AcDbScale
 70
     0
300
1/64" = 1'-0"
140
0.015625
141
12.0
290
     0
  0
SCALE
  5
5B
102
{ACAD_REACTORS
330
47
102
}
330
47
100
AcDbScale
 70
     0
300
1/32" = 1'-0"
140
0.03125
141
12.0
290
     0
  0
SCALE
  5
5C
102
{ACAD_REACTORS
330
47
102
}
330
47
100
AcDbScale
 70
     0
300
1/16" = 1'-0"
140
0.0625
141
12.0
290
     0
  0
SCALE
  5
5D
102
{ACAD_REACTORS
330
47
102
}
330
47
100
AcDbScale
 70
     0
300
3/32" = 1'-0"
140
0.09375
141
12.0
290
     0
  0
SCALE
  5
5E
102
{ACAD_REACTORS
330
47
102
}
330
47
100
AcDbScale
 70
     0
300
1/8" = 1'-0"
140
0.125
141
12.0
290
     0
  0
SCALE
  5
5F
102
{ACAD_REACTORS
330
47
102
}
330
47
100
AcDbScale
 70
     0
300
3/16" = 1'-0"
140
0.1875
141
12.0
290
     0
  0
SCALE
  5
60
102
{ACAD_REACTORS
330
47
102
}
330
47
100
AcDbScale
 70
     0
300
1/4" = 1'-0"
140
0.25
141
12.0
290
     0
  0
SCALE
  5
61
102
{ACAD_REACTORS
330
47
102
}
330
47
100
AcDbScale
 70
     0
300
3/8" = 1'-0"
140
0.375
141
12.0
290
     0
  0
SCALE
  5
62
102
{ACAD_REACTORS
330
47
102
}
330
47
100
AcDbScale
 70
     0
300
1/2" = 1'-0"
140
0.5
141
12.0
290
     0
  0
SCALE
  5
63
102
{ACAD_REACTORS
330
47
102
}
330
47
100
AcDbScale
 70
     0
300
3/4" = 1'-0"
140
0.75
141
12.0
290
     0
  0
SCALE
  5
64
102
{ACAD_REACTORS
330
47
102
}
330
47
100
AcDbScale
 70
     0
300
1" = 1'-0"
140
1.0
141
12.0
290
     0
  0
SCALE
  5
65
102
{ACAD_REACTORS
330
47
102
}
330
47
100
AcDbScale
 70
     0
300
1-1/2" = 1'-0"
140
1.5
141
12.0
290
     0
  0
SCALE
  5
66
102
{ACAD_REACTORS
330
47
102
}
330
47
100
AcDbScale
 70
     0
300
3" = 1'-0"
140
3.0
141
12.0
290
     0
  0
SCALE
  5
67
102
{ACAD_REACTORS
330
47
102
}
330
47
100
AcDbScale
 70
     0
300
6" = 1'-0"
140
6.0
141
12.0
290
     0
  0
SCALE
  5
68
102
{ACAD_REACTORS
330
47
102
}
330
47
100
AcDbScale
 70
     0
300
1'-0" = 1'-0"
140
12.0
141
12.0
290
     0
  0
ENDSEC
  0
EOF
